  0
SECTION
  2
HEADER
  9
$ACADVER
  1
AC1009
  9
$INSBASE
 10
9.999999999999994
 20
-50.0
 30
0.0
  9
$EXTMIN
 10
9.171572875253804
 20
-50.82842712474619
 30
0.0
  9
$EXTMAX
 10
120.8284271247461
 20
180.828427124743
 30
0.0
  9
$LIMMIN
 10
0.0
 20
0.0
  9
$LIMMAX
 10
420.0
 20
297.0
  9
$ORTHOMODE
 70
     0
  9
$REGENMODE
 70
     0
  9
$FILLMODE
 70
     1
  9
$QTEXTMODE
 70
     0
  9
$MIRRTEXT
 70
     0
  9
$DRAGMODE
 70
     2
  9
$LTSCALE
 40
1.0
  9
$OSMODE
 70
     0
  9
$ATTMODE
 70
     1
  9
$TEXTSIZE
 40
3.5
  9
$TRACEWID
 40
0.1
  9
$TEXTSTYLE
  7
STANDARD
  9
$CLAYER
  8
0
  9
$CELTYPE
  6
BYLAYER
  9
$CECOLOR
 62
   256
  9
$DIMSCALE
 40
1.0
  9
$DIMASZ
 40
2.0
  9
$DIMEXO
 40
1.0
  9
$DIMDLI
 40
8.0
  9
$DIMRND
 40
0.0
  9
$DIMDLE
 40
0.0
  9
$DIMEXE
 40
2.0
  9
$DIMTP
 40
0.1
  9
$DIMTM
 40
0.1
  9
$DIMTXT
 40
3.5
  9
$DIMCEN
 40
2.0
  9
$DIMTSZ
 40
0.0
  9
$DIMTOL
 70
     0
  9
$DIMLIM
 70
     0
  9
$DIMTIH
 70
     0
  9
$DIMTOH
 70
     0
  9
$DIMSE1
 70
     0
  9
$DIMSE2
 70
     0
  9
$DIMTAD
 70
     1
  9
$DIMZIN
 70
     0
  9
$DIMBLK
  1

  9
$DIMASO
 70
     1
  9
$DIMSHO
 70
     0
  9
$DIMPOST
  1

  9
$DIMAPOST
  1

  9
$DIMALT
 70
     0
  9
$DIMALTD
 70
     2
  9
$DIMALTF
 40
25.39999999999999
  9
$DIMLFAC
 40
1.0
  9
$DIMTOFL
 70
     0
  9
$DIMTVP
 40
0.0
  9
$DIMTIX
 70
     0
  9
$DIMSOXD
 70
     0
  9
$DIMSAH
 70
     0
  9
$DIMBLK1
  1

  9
$DIMBLK2
  1

  9
$DIMSTYLE
  2
*UNNAMED
  9
$DIMCLRD
 70
     0
  9
$DIMCLRE
 70
     0
  9
$DIMCLRT
 70
     0
  9
$DIMTFAC
 40
1.0
  9
$DIMGAP
 40
0.09
  9
$LUNITS
 70
     2
  9
$LUPREC
 70
     3
  9
$SKETCHINC
 40
0.1
  9
$FILLETRAD
 40
20.0
  9
$AUNITS
 70
     0
  9
$AUPREC
 70
     1
  9
$MENU
  1

  9
$ELEVATION
 40
0.0
  9
$PELEVATION
 40
0.0
  9
$THICKNESS
 40
0.0
  9
$LIMCHECK
 70
     0
  9
$BLIPMODE
 70
     0
  9
$CHAMFERA
 40
0.0
  9
$CHAMFERB
 40
0.0
  9
$SKPOLY
 70
     1
  9
$TDCREATE
 40
2448537.431009953
  9
$TDUPDATE
 40
2449393.431849768
  9
$TDINDWG
 40
0.0019567130
  9
$TDUSRTIMER
 40
0.0019567130
  9
$USRTIMER
 70
     1
  9
$ANGBASE
 50
0.0
  9
$ANGDIR
 70
     0
  9
$PDMODE
 70
     0
  9
$PDSIZE
 40
0.0
  9
$PLINEWID
 40
0.0
  9
$COORDS
 70
     2
  9
$SPLFRAME
 70
     0
  9
$SPLINETYPE
 70
     6
  9
$SPLINESEGS
 70
     8
  9
$ATTDIA
 70
     1
  9
$ATTREQ
 70
     1
  9
$HANDLING
 70
     0
  9
$HANDSEED
  5
8E
  9
$SURFTAB1
 70
     6
  9
$SURFTAB2
 70
     6
  9
$SURFTYPE
 70
     6
  9
$SURFU
 70
     6
  9
$SURFV
 70
     6
  9
$UCSNAME
  2

  9
$UCSORG
 10
0.0
 20
0.0
 30
0.0
  9
$UCSXDIR
 10
1.0
 20
0.0
 30
0.0
  9
$UCSYDIR
 10
0.0
 20
1.0
 30
0.0
  9
$PUCSNAME
  2

  9
$PUCSORG
 10
0.0
 20
0.0
 30
0.0
  9
$PUCSXDIR
 10
1.0
 20
0.0
 30
0.0
  9
$PUCSYDIR
 10
0.0
 20
1.0
 30
0.0
  9
$USERI1
 70
     0
  9
$USERI2
 70
     3
  9
$USERI3
 70
    15
  9
$USERI4
 70
     0
  9
$USERI5
 70
     0
  9
$USERR1
 40
1.0
  9
$USERR2
 40
1.0
  9
$USERR3
 40
0.0
  9
$USERR4
 40
1.0
  9
$USERR5
 40
0.0
  9
$WORLDVIEW
 70
     1
  9
$SHADEDGE
 70
     3
  9
$SHADEDIF
 70
    70
  9
$TILEMODE
 70
     1
  9
$MAXACTVP
 70
    16
  9
$PINSBASE
 10
0.0
 20
0.0
 30
0.0
  9
$PLIMCHECK
 70
     0
  9
$PEXTMIN
 10
1.000000000000000E+20
 20
1.000000000000000E+20
 30
1.000000000000000E+20
  9
$PEXTMAX
 10
-1.000000000000000E+20
 20
-1.000000000000000E+20
 30
-1.000000000000000E+20
  9
$PLIMMIN
 10
0.0
 20
0.0
  9
$PLIMMAX
 10
12.0
 20
9.0
  9
$UNITMODE
 70
     0
  9
$VISRETAIN
 70
     0
  9
$PLINEGEN
 70
     0
  9
$PSLTSCALE
 70
     0
  9
$TREEDEPTH
 70
  3020
  9
$DWGCODEPAGE
  3
undefined
  0
ENDSEC
  0
SECTION
  2
TABLES
  0
TABLE
  2
VPORT
 70
     2
  0
VPORT
  2
*ACTIVE
 70
     0
 10
0.0
 20
0.0
 11
1.0
 21
1.0
 12
168.7831325301183
 22
74.46982846640632
 13
0.0
 23
0.0
 14
1.0
 24
1.0
 15
10.0
 25
10.0
 16
0.0
 26
0.0
 36
1.0
 17
0.0
 27
0.0
 37
0.0
 40
248.9396569328126
 41
1.275675675675675
 42
50.0
 43
0.0
 44
0.0
 50
0.0
 51
0.0
 71
     0
 72
   100
 73
     1
 74
     1
 75
     0
 76
     0
 77
     0
 78
     0
  0
ENDTAB
  0
TABLE
  2
LTYPE
 70
     1
  0
LTYPE
  2
AUSGEZOGEN
 70
    64
  3
Solid line
 72
    65
 73
     0
 40
0.0
  0
ENDTAB
  0
TABLE
  2
LAYER
 70
     2
  0
LAYER
  2
0
 70
    64
 62
     7
  6
AUSGEZOGEN
  0
LAYER
  2
ITEM_50
 70
    64
 62
     7
  6
AUSGEZOGEN
  0
ENDTAB
  0
TABLE
  2
STYLE
 70
     1
  0
STYLE
  2
STANDARD
 70
     0
 40
0.0
 41
1.0
 50
0.0
 71
     0
 42
3.5
  3
iso
  4

  0
ENDTAB
  0
TABLE
  2
VIEW
 70
     0
  0
ENDTAB
  0
TABLE
  2
UCS
 70
     0
  0
ENDTAB
  0
TABLE
  2
APPID
 70
     1
  0
APPID
  2
ACAD
 70
    64
  0
ENDTAB
  0
TABLE
  2
DIMSTYLE
 70
     0
  0
ENDTAB
  0
ENDSEC
  0
SECTION
  2
BLOCKS
  0
BLOCK
  8
0
  2
ACAD
 70
    64
 10
0.0
 20
0.0
 30
0.0
  3
ACAD
  0
ENDBLK
  8
0
  0
ENDSEC
  0
SECTION
  2
ENTITIES
  0
CIRCLE
  8
ITEM_50
 10
29.99999999999999
 20
139.9999999999968
 30
0.0
 40
4.599999999999999
  0
CIRCLE
  8
ITEM_50
 10
29.99999999999999
 20
139.9999999999968
 30
0.0
 40
7.0
  0
LINE
  8
ITEM_50
 10
34.99999999999996
 20
41.99999999999685
 30
0.0
 11
34.99999999999996
 21
39.99999999999685
 31
0.0
  0
LINE
  8
ITEM_50
 10
24.99999999999996
 20
41.99999999999685
 30
0.0
 11
34.99999999999996
 21
41.99999999999685
 31
0.0
  0
LINE
  8
ITEM_50
 10
25.00000000000002
 20
39.99999999999688
 30
0.0
 11
24.99999999999996
 21
41.99999999999685
 31
0.0
  0
ARC
  8
ITEM_50
 10
46.00000000000002
 20
35.99999999999685
 30
0.0
 40
4.0
 50
0.0
 51
90.00000000000001
  0
ARC
  8
ITEM_50
 10
14.00000000000005
 20
35.99999999999685
 30
0.0
 40
4.0
 50
90.00000000000001
 51
180.0
  0
ARC
  8
ITEM_50
 10
45.99999999999999
 20
175.9999999999968
 30
0.0
 40
4.0
 50
0.0
 51
89.9999999999999
  0
ARC
  8
ITEM_50
 10
13.99999999999999
 20
175.9999999999969
 30
0.0
 40
4.0
 50
89.99999999999992
 51
180.0
  0
ARC
  8
ITEM_50
 10
35.74999999999996
 20
129.9999999999968
 30
0.0
 40
2.0
 50
0.0000000000000509
 51
90.0
  0
ARC
  8
ITEM_50
 10
24.24999999999999
 20
129.9999999999968
 30
0.0
 40
2.0
 50
90.0
 51
179.9999999999999
  0
LINE
  8
ITEM_50
 10
36.99999999999678
 20
101.6379692804591
 30
0.0
 11
37.74999999999999
 21
101.6379692804591
 31
0.0
  0
LINE
  8
ITEM_50
 10
22.24999999999999
 20
101.6379692804591
 30
0.0
 11
23.00460829966723
 21
101.6379692804591
 31
0.0
  0
LINE
  8
ITEM_50
 10
37.74999999999999
 20
100.0973445092985
 30
0.0
 11
39.16421356237309
 21
98.68313094692543
 31
0.0
  0
LINE
  8
ITEM_50
 10
22.24999999999999
 20
100.0973445092985
 30
0.0
 11
20.83578643762688
 21
98.68313094692543
 31
0.0
  0
ARC
  8
ITEM_50
 10
35.74999999999999
 20
165.9999999999968
 30
0.0
 40
2.0
 50
0.0
 51
89.99999999999977
  0
ARC
  8
ITEM_50
 10
24.25000000000002
 20
165.9999999999969
 30
0.0
 40
2.0
 50
89.99999999999978
 51
179.9999999999999
  0
LINE
  8
ITEM_50
 10
24.24999999999999
 20
131.9999999999968
 30
0.0
 11
35.74999999999996
 21
131.9999999999968
 31
0.0
  0
LINE
  8
ITEM_50
 10
37.74999999999999
 20
100.0973445092985
 30
0.0
 11
22.24999999999999
 21
100.0973445092985
 31
0.0
  0
LINE
  8
ITEM_50
 10
37.74999999999999
 20
100.0973445092985
 30
0.0
 11
37.74999999999993
 21
165.9999999999968
 31
0.0
  0
LINE
  8
ITEM_50
 10
24.25000000000002
 20
167.9999999999969
 30
0.0
 11
35.74999999999999
 21
167.9999999999968
 31
0.0
  0
LINE
  8
ITEM_50
 10
22.24999999999999
 20
100.0973445092985
 30
0.0
 11
22.24999999999999
 21
165.9999999999969
 31
0.0
  0
LINE
  8
ITEM_50
 10
14.00000000000005
 20
39.99999999999685
 30
0.0
 11
46.00000000000002
 21
39.99999999999685
 31
0.0
  0
LINE
  8
ITEM_50
 10
9.999999999999994
 20
175.9999999999969
 30
0.0
 11
10.00000000000002
 21
19.99999999999684
 31
0.0
  0
LINE
  8
ITEM_50
 10
45.99999999999999
 20
179.9999999999968
 30
0.0
 11
13.99999999999999
 21
179.9999999999969
 31
0.0
  0
LINE
  8
ITEM_50
 10
49.99999999999999
 20
19.99999999999683
 30
0.0
 11
49.99999999999999
 21
175.9999999999968
 31
0.0
  0
LINE
  8
ITEM_50
 10
9.999999999999994
 20
19.99999999999684
 30
0.0
 11
49.99999999999999
 21
19.99999999999683
 31
0.0
  0
LINE
  8
ITEM_50
 10
36.99999999999686
 20
100.8676568948772
 30
0.0
 11
36.9999999999968
 21
101.6676586869858
 31
0.0
  0
LINE
  8
ITEM_50
 10
22.99999999999686
 20
100.8676568948772
 30
0.0
 11
23.00461762018073
 21
101.6395272752747
 31
0.0
  0
INSERT
  8
0
  2
ACAD
 10
-46.69174737853195
 20
-165.0015442991541
 30
0.0
  0
ARC
  8
ITEM_50
 10
29.99999999998396
 20
223.9334738750148
 30
0.0
 40
119.0509731729268
 50
270.0000000000047
 51
270.9169027204208
  0
ARC
  8
ITEM_50
 10
30.95118286548605
 20
164.5006571142609
 30
0.0
 40
59.61054537365068
 50
270.9169027204187
 51
272.2126873073415
  0
ARC
  8
ITEM_50
 10
32.31957193852351
 20
129.0849263351489
 30
0.0
 40
24.16838862108061
 50
272.2126873073416
 51
275.3291360435154
  0
ARC
  8
ITEM_50
 10
34.56059792270092
 20
105.0602349912724
 30
0.0
 40
0.0394020772927902
 50
275.3291360434674
 51
359.9999999997933
  0
ARC
  8
ITEM_50
 10
34.56059792270112
 20
105.0602349912724
 30
0.0
 40
0.0394020772925785
 50
359.9999999998346
 51
84.67086395646445
  0
ARC
  8
ITEM_50
 10
32.31957193852633
 20
81.03554364736906
 30
0.0
 40
24.16838862110689
 50
84.67086395649658
 51
87.78731269266745
  0
ARC
  8
ITEM_50
 10
30.95118286549978
 20
45.61981286839325
 30
0.0
 40
59.61054537354047
 50
87.78731269266749
 51
89.08309727959371
  0
ARC
  8
ITEM_50
 10
30.00000000000343
 20
-13.81300389257906
 30
0.0
 40
119.050973173035
 50
89.08309727958982
 51
90.00000000000468
  0
ARC
  8
ITEM_50
 10
30.00000000000343
 20
-13.8130038930018
 30
0.0
 40
119.0509731734577
 50
90.00000000000468
 51
90.91690272041709
  0
ARC
  8
ITEM_50
 10
29.04881713450304
 20
45.61981286823991
 30
0.0
 40
59.61054537369377
 50
90.91690272042036
 51
92.21268730734165
  0
ARC
  8
ITEM_50
 10
27.68042806146407
 20
81.0355436473899
 30
0.0
 40
24.16838862108568
 50
92.21268730734163
 51
95.32913604351493
  0
ARC
  8
ITEM_50
 10
25.43940207728638
 20
105.0602349912715
 30
0.0
 40
0.039402077292677
 50
95.32913604348287
 51
179.9999999999586
  0
ARC
  8
ITEM_50
 10
25.43940207728632
 20
105.0602349912715
 30
0.0
 40
0.0394020772926069
 50
179.9999999999173
 51
264.6708639564644
  0
ARC
  8
ITEM_50
 10
27.68042806145941
 20
129.084926335133
 30
0.0
 40
24.16838862106504
 50
264.6708639564914
 51
267.7873126926676
  0
ARC
  8
ITEM_50
 10
29.04881713449787
 20
164.500657114415
 30
0.0
 40
59.61054537380498
 50
267.7873126926675
 51
269.0830972795907
  0
ARC
  8
ITEM_50
 10
29.99999999998396
 20
223.9334738752089
 30
0.0
 40
119.050973173121
 50
269.0830972795918
 51
270.0000000000047
  0
ARC
  8
ITEM_50
 10
23.08798882137977
 20
101.6676568948772
 30
0.0
 40
0.0879888213828983
 50
198.6445037054883
 51
262.4333775056963
  0
ARC
  8
ITEM_50
 10
26.46336373757863
 20
127.0778220743778
 30
0.0
 40
25.72135867933192
 50
262.4333775057032
 51
266.8506293022863
  0
ARC
  8
ITEM_50
 10
28.55490652698227
 20
165.0904512360517
 30
0.0
 40
63.79148511756231
 50
266.8506293022864
 51
268.6943985791967
  0
ARC
  8
ITEM_50
 10
29.99999999999686
 20
228.4968050409093
 30
0.0
 40
127.2143043388215
 50
268.6943985791963
 51
270.0
  0
ARC
  8
ITEM_50
 10
23.08798882137977
 20
100.8676568948772
 30
0.0
 40
0.0879888213829077
 50
180.0000000000185
 51
262.4333775056963
  0
ARC
  8
ITEM_50
 10
26.46336373757863
 20
126.2778220743778
 30
0.0
 40
25.72135867933192
 50
262.4333775057032
 51
266.8506293022863
  0
ARC
  8
ITEM_50
 10
28.55490652698227
 20
164.2904512360517
 30
0.0
 40
63.79148511756231
 50
266.8506293022864
 51
268.6943985791967
  0
ARC
  8
ITEM_50
 10
29.99999999999686
 20
227.6968050409093
 30
0.0
 40
127.2143043388215
 50
268.6943985791963
 51
270.0
  0
ARC
  8
ITEM_50
 10
29.99999999999686
 20
228.4968050409243
 30
0.0
 40
127.2143043388364
 50
270.0
 51
271.3056014208036
  0
ARC
  8
ITEM_50
 10
31.44509347301094
 20
165.0904512360603
 30
0.0
 40
63.79148511757085
 50
271.3056014208036
 51
273.1493706977136
  0
ARC
  8
ITEM_50
 10
33.53663626241603
 20
127.0778220743606
 30
0.0
 40
25.7213586793147
 50
273.1493706977136
 51
277.5666224942998
  0
ARC
  8
ITEM_50
 10
36.91201117861401
 20
101.6676568948772
 30
0.0
 40
0.0879888213828413
 50
277.5666224942901
 51
359.9999999999815
  0
ARC
  8
ITEM_50
 10
29.99999999999686
 20
227.6968050409243
 30
0.0
 40
127.2143043388364
 50
270.0
 51
271.3056014208036
  0
ARC
  8
ITEM_50
 10
31.44509347301094
 20
164.2904512360603
 30
0.0
 40
63.79148511757085
 50
271.3056014208036
 51
273.1493706977136
  0
ARC
  8
ITEM_50
 10
33.53663626241603
 20
126.2778220743606
 30
0.0
 40
25.7213586793147
 50
273.1493706977136
 51
277.5666224942998
  0
ARC
  8
ITEM_50
 10
36.91201117861401
 20
100.8676568948772
 30
0.0
 40
0.0879888213828413
 50
277.5666224942901
 51
359.9999999999815
  0
ARC
  8
ITEM_50
 10
30.27405599161547
 20
99.13096914390091
 30
0.0
 40
7.690097407352503
 50
129.1962208459644
 51
160.9613263822196
  0
ARC
  8
ITEM_50
 10
29.72594400838453
 20
99.13096914390091
 30
0.0
 40
7.690097407352503
 50
19.03867361778039
 51
50.8037791540356
  0
LINE
  8
ITEM_50
 10
28.55662432702592
 20
142.4999999999968
 30
0.0
 11
27.11324865405185
 21
139.9999999999968
 31
0.0
  0
LINE
  8
ITEM_50
 10
27.11324865405185
 20
139.9999999999968
 30
0.0
 11
28.55662432702592
 21
137.4999999999968
 31
0.0
  0
LINE
  8
ITEM_50
 10
28.55662432702592
 20
137.4999999999968
 30
0.0
 11
31.44337567297406
 21
137.4999999999968
 31
0.0
  0
LINE
  8
ITEM_50
 10
31.44337567297406
 20
137.4999999999968
 30
0.0
 11
32.88675134594813
 21
139.9999999999968
 31
0.0
  0
LINE
  8
ITEM_50
 10
32.88675134594813
 20
139.9999999999968
 30
0.0
 11
31.44337567297406
 21
142.4999999999968
 31
0.0
  0
LINE
  8
ITEM_50
 10
31.44337567297406
 20
142.4999999999968
 30
0.0
 11
28.55662432702592
 21
142.4999999999968
 31
0.0
  0
LINE
  8
ITEM_50
 10
14.0
 20
-50.0
 30
0.0
 11
46.00000000000001
 21
-50.0
 31
0.0
  0
LINE
  8
ITEM_50
 10
50.00000000000001
 20
-46.0
 30
0.0
 11
50.0
 21
10.0
 31
0.0
  0
LINE
  8
ITEM_50
 10
50.0
 20
10.0
 30
0.0
 11
10.0
 21
10.0
 31
0.0
  0
LINE
  8
ITEM_50
 10
10.0
 20
10.0
 30
0.0
 11
10.0
 21
-46.0
 31
0.0
  0
LINE
  8
ITEM_50
 10
45.99999999999998
 20
-10.0
 30
0.0
 11
14.0
 21
-10.0
 31
0.0
  0
LINE
  8
ITEM_50
 10
25.0
 20
-10.0
 30
0.0
 11
25.0
 21
-38.0
 31
0.0
  0
LINE
  8
ITEM_50
 10
27.0
 20
-40.0
 30
0.0
 11
33.00000000000001
 21
-40.0
 31
0.0
  0
LINE
  8
ITEM_50
 10
35.00000000000001
 20
-38.0
 30
0.0
 11
35.0
 21
-10.0
 31
0.0
  0
ARC
  8
ITEM_50
 10
46.00000000000001
 20
-46.0
 30
0.0
 40
4.0
 50
270.0
 51
0.0000000000000127
  0
ARC
  8
ITEM_50
 10
14.0
 20
-46.0
 30
0.0
 40
4.0
 50
180.0
 51
270.0
  0
ARC
  8
ITEM_50
 10
45.99999999999998
 20
-6.0
 30
0.0
 40
4.0
 50
270.0
 51
0.0
  0
ARC
  8
ITEM_50
 10
14.0
 20
-6.0
 30
0.0
 40
4.0
 50
180.0
 51
270.0
  0
ARC
  8
ITEM_50
 10
27.0
 20
-38.0
 30
0.0
 40
2.0
 50
180.0
 51
270.0
  0
ARC
  8
ITEM_50
 10
33.00000000000001
 20
-38.0
 30
0.0
 40
2.0
 50
270.0000000000001
 51
0.0000000000000254
  0
LINE
  8
ITEM_50
 10
120.0
 20
19.99999999999686
 30
0.0
 11
120.0
 21
35.99999999999682
 31
0.0
  0
LINE
  8
ITEM_50
 10
116.0
 20
39.99999999999682
 30
0.0
 11
87.99999999999994
 21
39.99999999999688
 31
0.0
  0
LINE
  8
ITEM_50
 10
79.99999999999994
 20
47.99999999999688
 30
0.0
 11
79.99999999999994
 21
175.9999999999968
 31
0.0
  0
LINE
  8
ITEM_50
 10
75.99999999999994
 20
179.9999999999968
 30
0.0
 11
60.0
 21
179.9999999999968
 31
0.0
  0
LINE
  8
ITEM_50
 10
60.0
 20
179.9999999999968
 30
0.0
 11
60.0
 21
19.99999999999685
 31
0.0
  0
LINE
  8
ITEM_50
 10
60.0
 20
19.99999999999685
 30
0.0
 11
120.0
 21
19.99999999999686
 31
0.0
  0
ARC
  8
ITEM_50
 10
116.0
 20
35.99999999999682
 30
0.0
 40
4.0
 50
0.000000000000007
 51
90.0
  0
ARC
  8
ITEM_50
 10
75.99999999999994
 20
175.9999999999968
 30
0.0
 40
4.0
 50
0.000000000000007
 51
90.0
  0
ARC
  8
ITEM_50
 10
87.99999999999994
 20
47.99999999999688
 30
0.0
 40
8.0
 50
180.0
 51
270.0
  0
ENDSEC
  0
EOF
